Bullet For My Valentine

Bullet For My Valentine
 
AccueilAccueil  FAQFAQ  RechercherRechercher  S'enregistrerS'enregistrer  MembresMembres  GroupesGroupes  Connexion  

Partagez | 
 

 Tablatures

Voir le sujet précédent Voir le sujet suivant Aller en bas 
AuteurMessage
-x-PuNkY_GiRl-x-
Admin


Nombre de messages : 595
Localisation : 94
Date d'inscription : 09/02/2006

MessageSujet: Tablatures   Jeu 6 Avr à 17:41

Donc ici, pOstez les tablatures du grOupe Ou même autres !^^

_________________
I don't wanna see, my life is burning...
Revenir en haut Aller en bas
Voir le profil de l'utilisateur http://whatsername23.skyblog.com
Matt_BFMV_25
Bavard


Nombre de messages : 38
Date d'inscription : 20/07/2006

MessageSujet: Re: Tablatures   Dim 23 Juil à 17:43

Hand Of Blood

Intro:
Part 1
|--------------------------------|
|--------------------------------|
|--------------------------------|
|-0-14-15-0-12-14-0-10-12-0-9-10-|
|--------------------------------|
|--------------------------------|

Fill A
|---------|
|---------|
|---------|
|-0-7-9-7-|
|---------|
|---------|

Fill B
|----------------|
|----------------|
|----------------|
|-9h10p9h10p9h10-|
|----------------|
|----------------|

Fill C
|--------------------------------------------|
|--------------------------------------------|
|--------------------------------------------|
|-0-14-15-0-12-14-0-17-19-0-15-17-0-14-15-14-|
|--------------------------------------------|
|--------------------------------------------|

Order
Part 1 Fill A
Part 1 Fill B
Fill C
Part 1 nothing

|---------------------------|
|---------------------------|
|---------------------------|
|-0-0-0-3-5-0-0-0-0-2s3s2s2-| x2
|-0-0-0-3-5-0-0-0-0-2s3s2s2-|
|-0-0-0-3-5-0-0-0-0-2s3s2s2-|
PM . .
|--------------------------------------------------------------------------|
|--------------------------------------------------------------------------|
|--------------------------------------------------------------------------|
|------10----10----10----10----10-------12------12------12------12-14-15-14|
|--------------------------------------------------------------------------|
|--0-8---0-8---0-8---0-8---0-8-----0-10----0-10----0-10----0-10------------|
PM . . . . . . . . . . . . . . . . . .

|------------------------------------|
|------------------------------------|
|------------------------------------|
|-0~------3~-----------7~------------|
|-0~------3~-----------7~------------|
|-0~------3~-----------7~------------|

|-----------------------------------------|
|---------666666--------------------------|
|-----------------------------------------| x4
|-0-0-000--------0-0-000-333-555----------|
|-0-0-000--------0-0-000-333-555----------|
|-0-0-000--------0-0-000-333-555----------|
PM. . ... . . ...

Part 1 Fill A
Part 1 nothing
Part 1 Fill B
Part 1 SLIDE
|---------------------------|
|---------------------------|
|---------------------------|
|-3-0-7-0-000-3-0-7-0-000---|
|-3-0-7-0-000-3-0-7-0-000---|
|-3-0-7-0-000-3-0-7-0-000---|
PM ... ...

|--------------------------------------------------------------------------|
|--------------------------------------------------------------------------|
|--------------------------------------------------------------------------|
|------10----10----10----10----10-------12------12------12------12-14-15-14|
|--------------------------------------------------------------------------|
|--0-8---0-8---0-8---0-8---0-8-----0-10----0-10----0-10----0-10------------|
PM . . . . . . . . . . . . . . . . . .
|---------------------------|
|---------------------------|
|---------------------------|
|-3-0-7-0-000-3-0-7-0-000---|
|-3-0-7-0-000-3-0-7-0-000---|
|-3-0-7-0-000-3-0-7-0-000---|
PM ... ...

|--------------------------------------------------------------------------|
|--------------------------------------------------------------------------|
|--------------------------------------------------------------------------|
|------10----10----10----10----10-------12------12------12------12-14-15-14|
|--------------------------------------------------------------------------|
|--0-8---0-8---0-8---0-8---0-8-----0-10----0-10----0-10----0-10------------|
PM . . . . . . . . . . . . . . . . . .


|-----------------------------------------|
|---------666666--------------------------|
|-----------------------------------------| x4
|-0-0-000--------0-0-000-333-555----------|
|-0-0-000--------0-0-000-333-555----------|
|-0-0-000--------0-0-000-333-555----------|
PM. . ... . . ...

Part 1 Fill A
Part 1 nothing
Part 1 Fill B
Part 1 SLIDE
|---------------------------|
|---------------------------|
|---------------------------|
|-3-0-7-0-000-3-0-7-0-000---|
|-3-0-7-0-000-3-0-7-0-000---|
|-3-0-7-0-000-3-0-7-0-000---|
PM ... ...

|--------------------------------------------------------------------------|
|--------------------------------------------------------------------------|
|--------------------------------------------------------------------------|
|------10----10----10----10----10-------12------12------12------12-14-15-14|
|--------------------------------------------------------------------------|
|--8-8---8-8---8-8---8-8---8-8----10-10---10-10---10-10---10-10------------|
PM . . . . . . . . . . . . . . . . . .





|---------------------------|
|---------------------------|
|---------------------------|
|-3-0-7-0-000-3-0-7-0-000---|
|-3-0-7-0-000-3-0-7-0-000---|
|-3-0-7-0-000-3-0-7-0-000---|
PM ... ...

|--------------------------------------------------------------------------|
|--------------------------------------------------------------------------|
|--------------------------------------------------------------------------|
|------10----10----10----10----10-------12------12------12------12-14-15-14|
|--------------------------------------------------------------------------|
|--8-8---8-8---8-8---8-8---8-8----10-10---10-10---10-10---10-10------------|
PM . . . . . . . . . . . . . . . . . .

Backing to solo:
|-----------------------------------------|
|-----------------------------------------|
|-----------------------------------------| x2
|-0-0-000--------0-0-000-333-555----------|
|-0-0-000--------0-0-000-333-555----------|
|-0-0-000--------0-0-000-333-555----------|
PM. . ... . . ...

|-----------------------------------------|
|-----------------------------------------|
|-----------------------------------------| x2
|-8-8-8-8-8-8-8-8-0-0-0-0-0-0-0-0---------|
|-8-8-8-8-8-8-8-8-0-0-0-0-0-0-0-0---------|
|-8-8-8-8-8-8-8-8-0-0-0-0-0-0-0-0---------|

|--------------------------------|
|--------------------------------|
|-------9-10b--9-10-9-12-10-9-10-|
|---0-0--------------------------| x3
|--------------------------------|
|--------------------------------|
PM . .

dite moi si il ya des fautes!
Revenir en haut Aller en bas
Voir le profil de l'utilisateur http://bulletfmv25.skyblog.com
Matt_BFMV_25
Bavard


Nombre de messages : 38
Date d'inscription : 20/07/2006

MessageSujet: tears don't fall   Dim 23 Juil à 17:45

Tears Don't Fall

Intro with chorus and delay:
d:------------------------------------------------------------------------------------------------|
A:--------------------------------------------------------------------------------6h8-------------|
F:------9------9----9-------9----10----9------------5-------5-----5------7----5h7-----------------| x4
C:-7-7----7-7----7----7--7----7-----7----7-----3-3-----3-3----3-----5-5----5----------------------|
G:------------------------------------------------------------------------------------------------|
C:------------------------------------------------------------------------------------------------|

3rd time guitar 2 comes in:
d:---------------------------------------------|
A:---------------------------------------------|
F:---------------------------------------------|
C:-10-(16 times)--12-(8 times)-9-(8 times)-----|
G:---------------------------------------------|
C:---------------------------------------------|

Guitar 1
d:-----------------------------------------------|
A:-----------------------------------------------|
F:-----------------------------------------------|
C:------3----------5---------3----------5--7--5--|- figure timing out yourselves
G:------3----------5---------3----------5--7--5--|
C:------3----------5---------3----------5--7--5--|

Guitar 2:
d:--------------------------------------------------------------|
A:--------------------------------------------------------------|
F:-10-10-10-10--9--9--9--9-10-10-10-10--7-7-7-7-5-5-5-5-4-4-4-4-|
C:-10-10-10-10-10-10-10-10-10-10-10-10--------------------------|
G:--------------------------------------------------------------|
C:--------------------------------------------------------------|

d:--------------------------------------------------------------|
A:--------------------------------------------------------------|
F:-10-10-10-10--9--9--9--9-10-10-10-10--7-7-7-7-9-9-9-9-4-4-4-4-|
C:-10-10-10-10-10-10-10-10-10-10-10-10--------------------------|
G:--------------------------------------------------------------|
C:--------------------------------------------------------------|

Pre Verse thing:
d:-----------------------------------|
A:-----------------------------------|
F:-----------------------------------|
C-7^---------------------- <- hit 16-|x quickly bending slightly more each time
G:-----------------------------------|
C:-----------------------------------|


Verse 1:

Guitar 1:
d:------------------------------------------------------------------------------------------------|
A:--------------------------------------------------------------------------------6h8-------------|
F:------9------9----9-------9----10----9------------5-------5-----5------7----5h7-----------------| x4
C:-7-7----7-7----7----7--7----7-----7----7-----3-3-----3-3----3-----5-5----5----------------------|
G:------------------------------------------------------------------------------------------------|
C:------------------------------------------------------------------------------------------------|


d:-------------------------------------|
A:--------8-----------------8----------|
F:---4-5----5--4--5----4-5----5-4-5--7-|
C:------------------7------------------|
G:-------------------------------------|
C:-------------------------------------|

Guitar 2 (comes in 3rd time):
d:-----------------------------------------------------|
A:--5*-------------------------------------------------|
F:-----5*----------------------------------------------|
C:-----------------------------------------------------|
G:-----------------------------------------------------|
C:----------7--(16 times)---3--(8 times)--5------------|(8 times)

d:-------------------------------------------------------------------|
A:-------------------------------------------------------------------|
F:-------------------------------------------------------------------|
C:-------------------------------------------------------------------|
G:-------------------------------------------------------------------|
C:-7--7-7-7-(8 times)--10--10-10-10--(4 times)---3--3-3-3------------|(4 times)
^triplets ^ triplets ^ triplets

Chorus:
Guitar 1
d:-----------------------------------------------|
A:-----------------------------------------------|
F:-----------------------------------------------|
C:------3----------5---------3----------5--7--5--|- figure timing out yourselves
G:------3----------5---------3----------5--7--5--|
C:------3----------5---------3----------5--7--5--|
Guitar 2:
d:--------------------------------------------------------------|
A:--------------------------------------------------------------|
F:-10-10-10-10--9--9--9--9-10-10-10-10--7-7-7-7-5-5-5-5-4-4-4-4-|
C:-10-10-10-10-10-10-10-10-10-10-10-10--------------------------|
G:--------------------------------------------------------------|
C:--------------------------------------------------------------|

d:--------------------------------------------------------------|
A:--------------------------------------------------------------|
F:-10-10-10-10--9--9--9--9-10-10-10-10--7-7-7-7-9-9-9-9-4-4-4-4-|
C:-10-10-10-10-10-10-10-10-10-10-10-10--------------------------|
G:--------------------------------------------------------------|
C:--------------------------------------------------------------|

Pre Verse thing:
d:-----------------------------------|
A:-----------------------------------|
F:-----------------------------------|
C-7^---------------------- <- hit 16-|x quickly bending slightly more each time
G:-----------------------------------|
C:-----------------------------------|


Verse 2:

Guitar 1:
d:------------------------------------------------------------------------------------------------|
A:--------------------------------------------------------------------------------6h8-------------|
F:------9------9----9-------9----10----9------------5-------5-----5------7----5h7-----------------| x4
C:-7-7----7-7----7----7--7----7-----7----7-----3-3-----3-3----3-----5-5----5----------------------|
G:------------------------------------------------------------------------------------------------|
C:------------------------------------------------------------------------------------------------|

d:-------------------------------------|
A:--------8-----------------8----------|
F:---4-5----5--4--5----4-5----5-4-5--7-|
C:------------------7------------------|
G:-------------------------------------|
C:-------------------------------------|

Guitar 2 (comes in 3rd time):



d:-----------------------------------------------------|
A:--5*-------------------------------------------------|
F:-----5*----------------------------------------------|
C:-----------------------------------------------------|
G:-----------------------------------------------------|
C:----------7--(16 times)---3--(8 times)--5------------|(8 times)

d:-------------------------------------------------------------------|
A:-------------------------------------------------------------------|
F:-------------------------------------------------------------------|
C:-------------------------------------------------------------------|
G:-------------------------------------------------------------------|
C:-7--7-7-7-(8 times)--10--10-10-10--(4 times)---3--3-3-3------------|(4 times)
^triplets ^ triplets ^ triplets


Chorus:
Guitar 1
d:------------------------------------------|
A:------------------------------------------|
F:------------------------------------------|
C:------3----------5---------3----------5---| <- figure timing out yourselves
G:------3----------5---------3----------5---|
C:------3----------5---------3----------5---|

Guitar 2:
d:--------------------------------------------------------------|
A:--------------------------------------------------------------|
F:-10-10-10-10--9--9--9--9-10-10-10-10--7-7-7-7-5-5-5-5-4-4-4-4-|
C:-10-10-10-10-10-10-10-10-10-10-10-10--------------------------|
G:--------------------------------------------------------------|
C:--------------------------------------------------------------|

d:--------------------------------------------------------------|
A:--------------------------------------------------------------|
F:-10-10-10-10--9--9--9--9-10-10-10-10--7-7-7-7-9-9-9-9-4-4-4-4-|
C:-10-10-10-10-10-10-10-10-10-10-10-10--------------------------|
G:--------------------------------------------------------------|
C:--------------------------------------------------------------|

Bridge:

Both Guitars:
d:-----------------------------------------------------------------|
A:-----------------------------------------------------------------|
F:-----------------------------------------------------------------|
C:-------------------------------------------10--9--10--13--12--10-|
G:-------------------------------------------10--9--10--13--12--10-|
C:7--7-7-7-7-7-7-7-7-(play a bunch of times)-10--9--10--13--12--10-|

Guitar one
d:--------------------------------------------------------------------|
A:--------------------------------------------------------------------|
F:-------------------9-7--5-7--7-9-5----------------------------------|
C:------------------------------------------------5-3-2-3--2-3-2------|
G:--------------------------------------------------------------------|
C:-7--7-7-7-7-7-7-7------------------7--7-7-7-------------------------|
^triplet

d:---------------------------------------------------------------------|
A:---------------------------------------------------------------------|
F:-------------------9-7--5-7--7-9-5-----------------------------------|
C:-----------------------------------------------10--9--10--13--12--10-|
G:-----------------------------------------------10--9--10--13--12--10-|
C:-7--7-7-7-7-7-7-7------------------7--7-7-7----10--9--10--13--12--10-|
^triplet
Guitar 2:
d:-----------------------------------------------------------|
A:-----------------------------------------------------------|
F:-------------------10-9-7-9-9-10-7-------------------------|
C:---------------------------------------------5-3-2-3-------|
G:----------------------------------------------------3-5-3--|
C:-7--7-7-7-7-7-7-7-------------------7--7-7-7---------------|
^triplet

suite aprs!
Revenir en haut Aller en bas
Voir le profil de l'utilisateur http://bulletfmv25.skyblog.com
Matt_BFMV_25
Bavard


Nombre de messages : 38
Date d'inscription : 20/07/2006

MessageSujet: la suite de tears don't fall   Dim 23 Juil à 17:46

Guitar 2:
d:----------------------------------------------------------------------|
A:----------------------------------------------------------------------|
F:-------------------10-9-7-9-9-10-7------------------------------------|
C:------------------------------------------------10--9--10--13--12--10-|
G:------------------------------------------------10--9--10--13--12--10-|
C:-7--7-7-7-7-7-7-7-------------------7--7-7-7----10--9--10--13--12--10-|
^triplet
2nd half of bridge:

Guitar 1:
d:---------------------------------------------------------------|
A:---------------------------------------------------------------|
F:---------------------------------------------------------------|
C:--3-3-3-3-3-3-3-3-7-7-7-7-7-7-7-7-0-0---7-7--5---0-0--7-7--5---|
G:--3-3-3-3-3-3-3-3-7-7-7-7-7-7-7-7-0-0----------7-0-0---------7-|
C:--3-3-3-3-3-3-3-3-7-7-7-7-7-7-7-7-0-0------------0-0-----------|

Guitar 2:
d:-------------------------------------------------------------|
A:-------------------------------------------------------------|
F:---------------------------------------5-5-4---------5-5-4---|
C:--3-3-3-3-3-3-3-3-7-7-7-7-7-7-7-7-0-0--------5---0-0-------5-|
G:--3-3-3-3-3-3-3-3-7-7-7-7-7-7-7-7-0-0------------0-0---------|
C:--3-3-3-3-3-3-3-3-7-7-7-7-7-7-7-7-0-0------------0-0---------|

3rd time:

Both guitars:
d:---------------------------------|
A:---------------------------------|
F:---------------------------------|
C:-3---2---3---5---3----6--------7-|
G:-3---2---3---5---3----6--------7-|
C:-3---2---3---5---3----6--------7-|

Pre Solo:

d:-------------------------------|
A:-------------------------------|
F:-------------------------------|
C:-------------------------7-7-7-|
G:-------------------------7-7-7-|
C:-7---7-7-7-7-7-7-7-7-----7-7-7-|

Solo:

Gutiar 1:
1 lazy to sit here playing scales just tremelo pick alot

Guitar 2 & 3:

Guitar 2:
d:--------------------------------------------------------------------|
A:--------------------------------------------------------------------|
F:-------------------9-7--5-7--7-9-5----------------------------------|
C:------------------------------------------------5-3-2-3--2-3-2------|
G:--------------------------------------------------------------------|
C:-7--7-7-7-7-7-7-7------------------7--7-7-7-------------------------|
^triplet

d:---------------------------------------------------------------------|
A:---------------------------------------------------------------------|
F:-------------------9-7--5-7--7-9-5-----------------------------------|
C:-----------------------------------------------10--9--10--13--12--10-|
G:-----------------------------------------------10--9--10--13--12--10-|
C:-7--7-7-7-7-7-7-7------------------7--7-7-7----10--9--10--13--12--10-|
^triplet
Guitar 3:
d:-----------------------------------------------------------|
A:-----------------------------------------------------------|
F:-------------------10-9-7-9-9-10-7-------------------------|
C:---------------------------------------------5-3-2-3-------|
G:----------------------------------------------------3-5-3--|
C:-7--7-7-7-7-7-7-7-------------------7--7-7-7---------------|
^triplet

Guitar 2:
d:----------------------------------------------------------------------|
A:----------------------------------------------------------------------|
F:-------------------10-9-7-9-9-10-7------------------------------------|
C:------------------------------------------------10--9--10--13--12--10-|
G:------------------------------------------------10--9--10--13--12--10-|
C:-7--7-7-7-7-7-7-7-------------------7--7-7-7----10--9--10--13--12--10-|
^triplet

last time repeat the last chord section twice

Final Verse:

Guitar 1:
d:------------------------------------------------------------------------------------------------|
A:--------------------------------------------------------------------------------6h8-------------|
F:------9------9----9-------9----10----9------------5-------5-----5------7----5h7-----------------| x4
C:-7-7----7-7----7----7--7----7-----7----7-----3-3-----3-3----3-----5-5----5----------------------|
G:------------------------------------------------------------------------------------------------|
C:------------------------------------------------------------------------------------------------|

d:-------------------------------------|
A:--------8-----------------8----------|
F:---4-5----5--4--5----4-5----5-4-5--7-|
C:------------------7------------------|
G:-------------------------------------|
C:-------------------------------------|

Guitar 2 (comes in 3rd time):
d:-----------------------------------------------------|
A:--5*-------------------------------------------------|
F:-----5*----------------------------------------------|
C:-----------------------------------------------------|
G:-----------------------------------------------------|
C:----------7--(16 times)---3--(8 times)--5------------|(8 times)

d:-------------------------------------------------------------------|
A:-------------------------------------------------------------------|
F:-------------------------------------------------------------------|
C:-------------------------------------------------------------------|
G:-------------------------------------------------------------------|
C:-7--7-7-7-(8 times)--10--10-10-10--(4 times)---3--3-3-3------------|(4 times)
^triplets ^ triplets ^ triplets

Chorus:
Guitar 1
d:-----------------------------------------------|
A:-----------------------------------------------|
F:-----------------------------------------------|
C:------3----------5---------3----------5--7--5--|- figure timing out yourselves
G:------3----------5---------3----------5--7--5--|
C:------3----------5---------3----------5--7--5--|

Guitar 2:
d:--------------------------------------------------------------|
A:--------------------------------------------------------------|
F:-10-10-10-10--9--9--9--9-10-10-10-10--7-7-7-7-5-5-5-5-4-4-4-4-|
C:-10-10-10-10-10-10-10-10-10-10-10-10--------------------------|
G:--------------------------------------------------------------|
C:--------------------------------------------------------------|

d:--------------------------------------------------------------|
A:--------------------------------------------------------------|
F:-10-10-10-10--9--9--9--9-10-10-10-10--7-7-7-7-9-9-9-9-4-4-4-4-|
C:-10-10-10-10-10-10-10-10-10-10-10-10--------------------------|
G:--------------------------------------------------------------|
C:--------------------------------------------------------------|

Little thing between chorus's

Guitar1:




d:------------------|
A:-----8^-----------|
F:-4-5----5-4--5----|
C:---------------7--|
G:------------------|
C:------------------|

Guitar 2:
d:-------------------|
A:-------------------|
F:-7-9--12^-9-7-9-5--|
C:-------------------|
G:-------------------|
C:-------------------|

Chorus:
Guitar 1
d:-----------------------------------------------|
A:-----------------------------------------------|
F:-----------------------------------------------|
C:------3----------5---------3----------5--7--5--|- figure timing out yourselves
G:------3----------5---------3----------5--7--5--|
C:------3----------5---------3----------5--7--5--|

Guitar 2:
d:--------------------------------------------------------------|
A:--------------------------------------------------------------|
F:-10-10-10-10--9--9--9--9-10-10-10-10--7-7-7-7-5-5-5-5-4-4-4-4-|
C:-10-10-10-10-10-10-10-10-10-10-10-10--------------------------|
G:--------------------------------------------------------------|
C:--------------------------------------------------------------|

d:--------------------------------------------------------------|
A:--------------------------------------------------------------|
F:-10-10-10-10--9--9--9--9-10-10-10-10--7-7-7-7-9-9-9-9-4-4-4-4-|
C:-10-10-10-10-10-10-10-10-10-10-10-10--------------------------|
G:--------------------------------------------------------------|
C:--------------------------------------------------------------|

2nd time guitar 2 does this:
d:---------------------------------|
A:---------------------------------|
F:-7-9--12^-9-7-9-5--4-5-7-5-4-5-7-|
C:---------------------------------|
G:---------------------------------|
C:---------------------------------|

Outro:
Guitar 1:
d:---------------------------------|
A:-----8^--------------------------|
F:-4-5----5-4--5-------------------|
C:---------------7--5-7-9-7-5-7-9--|
G:---------------------------------|
C:---------------------------------|

Guitar 2:
d:---------------------------------|
A:---------------------------------|
F:-7-9--12^-9-7-9-5--4-5-7-5-4-5-7-|
C:---------------------------------|
G:---------------------------------|
C:---------------------------------|

END
Revenir en haut Aller en bas
Voir le profil de l'utilisateur http://bulletfmv25.skyblog.com
Matt_BFMV_25
Bavard


Nombre de messages : 38
Date d'inscription : 20/07/2006

MessageSujet: no control   Dim 23 Juil à 17:59

INTRO (PLAYED WITH ONE GUITAR)
D|------------------------------------------------------|
A|------------------------------------------------------|
F|-------------------------10---------5------5/7--5/7---|
C|--12>---0--000000000000--10--00000--5--00--5/7--5/7---|
G|--12>---0--000000000000--8---00000--3--00--3/5--3/5---|
C|--12>---0--000000000000------00000-----00-------------|x2
............ ..... ..

VERSE (BOTH GUITARS)
D|--------------------------------------------|
A|--------------------------------------------|
F|----------------10---------5------5/7--5/7--|
C|--000000000000--10--00000--5--00--5/7--5/7--|
G|--000000000000--8---00000--3--00--3/5--3/5--|
C|--000000000000------00000-----00------------|x4
............ ..... ..

PRE-CHORUS (GUITAR ONE)
D|-----------------------------------------|
A|-----------------------------------------|
F|--5/7-5/7------5/7-5/7------5/7-5/7------|
C|--5/7-5/7--00--5/7-5/7--00--5/7-5/7--00--|
G|--3/5-3/5--00--3/5-3/5--00--3/5-3/5--00--|
C|-----------00-----------00-----------00--|

PRE-CHORUS (GUITAR TWO)
D|-----------------------------------------|
A|-----------------------------------------|
F|-----------------------------------------|
C|-----------00-----------00-----------00--|
G|-----------00-----------00-----------00--|
C|-----------00-----------00-----------00--|


CHORUS (GUITAR ONE)
D|----------------------------------------------------------|
A|----------------------------------------------------------|
F|----------------------------------------------------------|
C|--88888888--1010101010101010--88888888--1212121212121212--|
G|--88888888--1010101010101010--88888888--1212121212121212--|
C|--88888888--1010101010101010--88888888--1212121212121212--|

CHORUS (GUITAR TWO)
D|--------------------------------------------|
A|--------------------------------------------|
F|--------------------------------------------|
C|--88888888--1010101010101010--88888888--0>--|
G|--88888888--1010101010101010--88888888--0>--|
C|--88888888--1010101010101010--88888888--0>--|

VERSE

PRE-CHORUS

CHORUS

BRIDGE (BOTH GUITARS)
D|-----------------------------------------|
A|-----------------------------------------|
F|-----------------------------------------|
C|--0--00--00-----------00000000-----------|
G|--0--00--00--3h5p3/2--00000000--3h5p3/2--|
C|--0--00--00-----------00000000-----------|

BREAKDOWN (GUITAR ONE - PLAYED ONCE BEFORE GUITAR TWO COMES IN)
D|-----------------------------------------------------------|
A|-----------------------------------------------------------|
F|-----------------------------------------------------------|
C|-----------------------------------------------------------|
G|---8---7-------8-8-8h10p8/7/8----8---7---------------------|
C|-0---0---10-12-----------------0---0---10-12-10-10^--------|
. . . .

BREAKDOWN (GUITAR TWO)
D|-------------------------------------------------------|
A|-------------------------------------------------------|
F|---10---9-------10-10-10h12p10/9/10---10---9-----------|
C|-0----0---10-12---------------------0----0---10-12-10--|
G|-------------------------------------------------------|
C|-------------------------------------------------------|
. . . .

CHORUS

PRE-CHORUS

BREAKDOWN

END
Revenir en haut Aller en bas
Voir le profil de l'utilisateur http://bulletfmv25.skyblog.com
Matt_BFMV_25
Bavard


Nombre de messages : 38
Date d'inscription : 20/07/2006

MessageSujet: INTRO TABLATUR   Dim 23 Juil à 18:02

Guitar comes in at 0:43

--------------------------------------------------------------------------------|
--------------------------------------------------------------------------------| guitar 1
--------------5-3-5-------------5-3-5-------------------------------------------|
----6-5-6--------------6-5-6-------------6-5-6----6-5-------6-5-6-----6-8-6-----| x2
-8------------------------------------4---------------6-------------------------|
--------------------------------------------------------------------------------|

--------------------------------------------------------------------------------|
--------------------------------------------------------------------------------| guitar 2
--------------------------------------------------------------------------------|
--------------------------------------------------------------------------------| x2
-8--------8---------8--------8--------4--------4--------4----------4------------|
--------------------------------------------------------------------------------|




--------------------------------------------------------------------------------|
--------------------------------------------------------------------------------| guitar 1
--------------5-3-5-------------5-3-5-------------------------------------------|
----6-5-6--------------6-5-6-------------6-5-6----6-5-------6-5-6-----6-8-6-----|
-8------------------------------------4---------------6-------------------------|
--------------------------------------------------------------------------------|

-----------------------------------------8-6-8----8-6-------8-6-8-----8-9-8-----|
------------------------------------------------------8-------------------------| guitar 2
--------------------------------------------------------------------------------|
--------------------------------------------------------------------------------|
-8--------8---------8--------8--------4--------4--------4----------4------------|
--------------------------------------------------------------------------------|



--------------------------------------------------------------------------------|
--------------------------------------------------------------------------------| guitar 1
--------------5-3-5-------------5-3-5-------------------------------------------|
----6-5-6--------------6-5-6-------------6-5-6----6-5-------6-5-6-----6-8-6-----|
-8------------------------------------4---------------6-------------------------|
--------------------------------------------------------------------------------|

--------------------------------------------------------------------------------|
------------------------------------------------6\1-----------------------------| guitar 2
--------------------------------------------------------------------------------|
--------------------------------------------------------------------------------|
--------------------------------------------------------------------------------|
--------------------------------------------------------------------------------|







--------------------------------------------------------------------------------|
--------------------------------------------------------------------------------| guitar 1
--------------5-3-5-------------5-3-5-------------------------------------------|
----6-5-6--------------6-5-6-------------6-5-6----6-5-------6-5-6-----6-8-6-----|
-8------------------------------------4---------------6-------------------------|
--------------------------------------------------------------------------------|

-----3-4-3---1-3-4-1-3-4--------------------------------------------------------|
-1 4---------------------4-4-6-4-6-6\1------------------------------------------| guitar 2
--------------------------------------------------------------------------------| distortion
--------------------------------------------------------------------------------|
--------------------------------------------------------------------------------|
--------------------------------------------------------------------------------|


--------------------------------------------------------------------------------|
--------------------------------------------------------------------------------| guitar 1
--------------5-3-5-------------5-3-5-------------------------------------------|
----6-5-6--------------6-5-6-------------6-5-6----6-5-------6-5-6-----6-8-6-----|
-8------------------------------------4---------------6-------------------------|
--------------------------------------------------------------------------------|

-----3-4-3---1-3-4-1-3-4--------------------------------------------------------|
-1 4---------------------4-4-6-4-6----9-8---------------------------------------| guitar 2
--------------------------------------------------------------------------------| distortion + feedback delay
--------------------------------------------------------------------------------|
--------------------------------------------------------------------------------|
--------------------------------------------------------------------------------|


--------------------------------------------------------------------------------|
--------------------------------------------------------------------------------| guitar 1
--------------5-3-5-------------5-3-5-------------------------------------------|
----6-5-6--------------6-5-6-------------6-5-6----6-5-------6-5-6-----6-8-6-----|
-8------------------------------------4---------------6-------------------------|
--------------------------------------------------------------------------------|

-20\4---------------------------------------------------------------------------|
--------------------------------------------------------------------------------| guitar 2
--------------------------------------------------------------------------------| distortion + feedback delay
--------------------------------------------------------------------------------|
--------------------------------------------------------------------------------|
--------------------------------------------------------------------------------|


--------------------------------------------------------------------------------|
-------------------------------------6-3----------------------------------6-3---| guitar 1
---5-6-5----5-6-5------5-6-5-8-5-6-5-------5-6-5----5-6-5---5-6-5-8-5-6-5-------|
--------------------------------------------------------------------------------|
--------------------------------------------------------------------------------|
--------------------------------------------------------------------------------|


--------------------------------------------------------------------------------|
--------------------------------------------------------------------------------| guitar 2
--------------------------------------------------------------------------------|
--------------------------------------------------------------------------------|
-3--------3---------3-------------------3---------3-------3---------------------|
--------------------------------------------------------------------------------|



END
Revenir en haut Aller en bas
Voir le profil de l'utilisateur http://bulletfmv25.skyblog.com
Matt_BFMV_25
Bavard


Nombre de messages : 38
Date d'inscription : 20/07/2006

MessageSujet: HER VOICES RESIDES   Dim 23 Juil à 18:09

INTRO
--------------------------------------------------------------------------------------|
--------------------------------------------------------------------------------------|
--------------------------------------------------------------------------------------|
----------------------7-5-------------------------------------------------------------|
---0-0-0-0-0-0-0-0-0-------7-8--8-7-8--12-10-12---------------------------------------|
---0-0-0-0-0-0-0-0-0-----0------8-7-8--12-10-12---------------------------------------|
* * * * * * * * *

--------------------------------------------------------------------------------------|
--------------------------------------------------------------------------------------|
--------------------------------------------------------------------------------------|
----------------------7-5-------------------------------------------------------------|
---0-0-0-0-0-0-0-0-0-------7-8--8-7-8--12-10-12---------------------------------------|
---0-0-0-0-0-0-0-0-0-----0------8-7-8--12-10-12---------------------------------------|
* * * * * * * * *

--------------------------------------------------------------------------------------|
--------------------------------------------------------------------------------------|
--------------------------------------------------------------------------------------|
----------------------7-5-------------------------------------------------------------|
---0-0-0-0-0-0-0-0-0-------7-8--8-7-8--12-10-12---------------------------------------|
---0-0-0-0-0-0-0-0-0-----0------8-7-8--12-10-12---------------------------------------|
* * * * * * * * *

--------------------------------------------------------------------------------------|
--------------------------------------------------------------------------------------|
--------------------------------------------------------------------------------------|
----------------------7-5-------------------------------------------------------------|
---0-0-0-0-0-0-0-0-0-------7-8--8---------10------------------------------------------|
---0-0-0-0-0-0-0-0-0-----0------8---------10------<<<<<-------------------------------|
* * * * * * * * *


VERSE
--------------------------------------------------------------------------------------|
--------------------------------------------------------------------------------------|
--------------------------------------------------------------------------------------|
----------------------------------------7-7-5-5-8-8-5-5-------------------------------|
---------------------7h8p7------------------------------------------------------------|
---0-0-0-0-0-0-0-0-0------7-0-0-0-0-0-0-----------------------------------------------|
* * * * * * * * * * * * * *

--------------------------------------------------------------------------------------|
--------------------------------------------------------------------------------------|
----------------------------------------10-10-9-9-12-12-9-9---------------------------|
--------------------------------------------------------------------------------------|
---------------------7h8p7------------------------------------------------------------|
---0-0-0-0-0-0-0-0-0------7-0-0-0-0-0-0-----------------------------------------------|
* * * * * * * * * * * * * *






--------------------------------------------------------------------------------------|
--------------------------------------------------------------------------------------|
--------------------------------------------------------------------------------------|
----------------------------------------7-7-5-5-8-8-5-5-------------------------------|
---------------------7h8p7------------------------------------------------------------|
---0-0-0-0-0-0-0-0-0------7-0-0-0-0-0-0-----------------------------------------------|
* * * * * * * * * * * * * *

--------------------------------------------------------------------------------------|
--------------------------------------------------------------------------------------|
----------------------------------------10-10-9-9-12-12-9-9---------------------------|
--------------------------------------------------------------------------------------|
---------------------7h8p7------------------------------------------------------------|
---0-0-0-0-0-0-0-0-0------7-0-0-0-0-0-0-----------------------------------------------|
* * * * * * * * * * * * * *


CHORUS
--------------------------------------------------------------------------------------|
--------------------------------------------------------------------------------------|
--------------------------------------------------------------------------------------|
--------------------------------------------------------------------------------------|
---8-8--10-10--8-8--14-15--8-8-10-10--------------------------------------------------|
---8-8--10-10--8-8--14-15--8-8-10-10-<<<<<<<------------------------------------------|

--------------------------------------------------------------------------------------|
--------------------------------------------------------------------------------------|
--------------------------------------------------------------------------------------|
-------------------------------------7h8p7h8p7h8p7h8----------------------------------|
---8-8--10-10--8-8--14-15--8-8-10-10--------------------------------------------------|
---8-8--10-10--8-8--14-15--8-8-10-10--------------------------------------------------|


INTERLUDE
--------------------------------------------------------------------------------------|
--------------------------------------------------------------------------------------|
--------------------------------------------------------------------------------------|
----------------------7-5-------------------------------------------------------------|
---0-0-0-0-0-0-0-0-0-------7-8--8-7-8--12-10-12---------------------------------------|
---0-0-0-0-0-0-0-0-0-----0------8-7-8--12-10-12---------------------------------------|
* * * * * * * * *

--------------------------------------------------------------------------------------|
--------------------------------------------------------------------------------------|
--------------------------------------------------------------------------------------|
----------------------7-5-------------------------------------------------------------|
---0-0-0-0-0-0-0-0-0-------7-8--8-7-8--12-10-12---------------------------------------|
---0-0-0-0-0-0-0-0-0-----0------8-7-8--12-10-12---------------------------------------|
* * * * * * * * *

--------------------------------------------------------------------------------------|
--------------------------------------------------------------------------------------|
--------------------------------------------------------------------------------------|
----------------------7-5-------------------------------------------------------------|
---0-0-0-0-0-0-0-0-0-------7-8--8-7-8--12-10-12---------------------------------------|
---0-0-0-0-0-0-0-0-0-----0------8-7-8--12-10-12---------------------------------------|
* * * * * * * * *

--------------------------------------------------------------------------------------|
--------------------------------------------------------------------------------------|
--------------------------------------------------------------------------------------|
----------------------7-5-------------------------------------------------------------|
---0-0-0-0-0-0-0-0-0-------7-8--8---------10------------------------------------------|
---0-0-0-0-0-0-0-0-0-----0------8---------10------<<<<<-------------------------------|
* * * * * * * * *


VERSE
--------------------------------------------------------------------------------------|
--------------------------------------------------------------------------------------|
--------------------------------------------------------------------------------------|
----------------------------------------7-7-5-5-8-8-5-5-------------------------------|
---------------------7h8p7------------------------------------------------------------|
---0-0-0-0-0-0-0-0-0------7-0-0-0-0-0-0-----------------------------------------------|
* * * * * * * * * * * * * *

--------------------------------------------------------------------------------------|
--------------------------------------------------------------------------------------|
----------------------------------------10-10-9-9-12-12-9-9---------------------------|
--------------------------------------------------------------------------------------|
---------------------7h8p7------------------------------------------------------------|
---0-0-0-0-0-0-0-0-0------7-0-0-0-0-0-0-----------------------------------------------|
* * * * * * * * * * * * * *

--------------------------------------------------------------------------------------|
--------------------------------------------------------------------------------------|
--------------------------------------------------------------------------------------|
----------------------------------------7-7-5-5-8-8-5-5-------------------------------|
---------------------7h8p7------------------------------------------------------------|
---0-0-0-0-0-0-0-0-0------7-0-0-0-0-0-0-----------------------------------------------|
* * * * * * * * * * * * * *

--------------------------------------------------------------------------------------|
--------------------------------------------------------------------------------------|
----------------------------------------10-10-9-9-12-12-9-9---------------------------|
--------------------------------------------------------------------------------------|
---------------------7h8p7------------------------------------------------------------|
---0-0-0-0-0-0-0-0-0------7-0-0-0-0-0-0-----------------------------------------------|
* * * * * * * * * * * * * *


CHORUS
--------------------------------------------------------------------------------------|
--------------------------------------------------------------------------------------|
--------------------------------------------------------------------------------------|
--------------------------------------------------------------------------------------|
---8-8--10-10--8-8--14-15--8-8-10-10--------------------------------------------------|
---8-8--10-10--8-8--14-15--8-8-10-10-<<<<<<<------------------------------------------|

--------------------------------------------------------------------------------------|
--------------------------------------------------------------------------------------|
--------------------------------------------------------------------------------------|
-------------------------------------7h8p7h8p7h8p7h8----------------------------------|
---8-8--10-10--8-8--14-15--8-8-10-10--------------------------------------------------|
---8-8--10-10--8-8--14-15--8-8-10-10--------------------------------------------------|

INTERLUDE
--------------------------------------------------------------------------------------|
--------------------------------------------------------------------------------------|
--------------------------------------------------------------------------------------|
----------------------7-5-------------------------------------------------------------|
---0-0-0-0-0-0-0-0-0-------7-8--8-7-8--12-10-12---------------------------------------|
---0-0-0-0-0-0-0-0-0-----0------8-7-8--12-10-12---------------------------------------|
* * * * * * * * *

--------------------------------------------------------------------------------------|
--------------------------------------------------------------------------------------|
--------------------------------------------------------------------------------------|
----------------------7-5-------------------------------------------------------------|
---0-0-0-0-0-0-0-0-0-------7-8--8-7-8--12-10-12---------------------------------------|
---0-0-0-0-0-0-0-0-0-----0------8-7-8--12-10-12---------------------------------------|
* * * * * * * * *

--------------------------------------------------------------------------------------|
--------------------------------------------------------------------------------------|
--------------------------------------------------------------------------------------|
----------------------7-5-------------------------------------------------------------|
---0-0-0-0-0-0-0-0-0-------7-8--8-7-8--12-10-12---------------------------------------|
---0-0-0-0-0-0-0-0-0-----0------8-7-8--12-10-12---------------------------------------|
* * * * * * * * *

--------------------------------------------------------------------------------------|
--------------------------------------------------------------------------------------|
--------------------------------------------------------------------------------------|
----------------------7-5-------------------------------------------------------------|
---0-0-0-0-0-0-0-0-0-------7-8--8---------10------------------------------------------|
---0-0-0-0-0-0-0-0-0-----0------8---------10------------------------------------------|
* * * * * * * * *

LA SUITE APRS
Revenir en haut Aller en bas
Voir le profil de l'utilisateur http://bulletfmv25.skyblog.com
Matt_BFMV_25
Bavard


Nombre de messages : 38
Date d'inscription : 20/07/2006

MessageSujet: SUITE DE HER VOICES RESIDES   Dim 23 Juil à 18:10

BREAKDOWN (WAH) - repeat as many times as needed
--------------------------------------------------------------------------------------|
---10-10p9--12p10---------------------------------------------------------------------|
--------------------------------------------------------------------------------------|
--------------------------------------------------------------------------------------|
--------------------------------------------------------------------------------------|
--------------------------------------------------------------------------------------|

BREAKDOWN 2
--------------------------------------------------------------------------------------|
--------------------------------------------------------------------------------------|
--------------------------------------------------------------------------------------|
-----7p5----------7p5---------7p5-------8-7-5-7-5-3-----------------------------------|
--0------8h10--0------8h10--0-----8h10------------------------------------------------|
--0------------0------------0---------------------------------------------------------|

--------------------------------------------------------------------------------------|
--------------------------------------------------------------------------------------|
--------------------------------------------------------------------------------------|
-----7p5----------7p5---------7p5-------8-7-5-7-5-3-----------------------------------|
--0------8h10--0------8h10--0-----8h10------------------------------------------------|
--0------------0------------0---------------------------------------------------------|

--------------------------------------------------------------------------------------|
--------------------------------------------------------------------------------------|
--------------------------------------------------------------------------------------|
-----7p5----------7p5---------7p5-------8-7-5-7-5-3-----------------------------------|
--0------8h10--0------8h10--0-----8h10------------------------------------------------|
--0------------0------------0---------------------------------------------------------|

--------------------------------------------------------------------------------------|
--------------------------------------------------------------------------------------|
--------------------------------------------------------------------------------------|
-----7p5----------7p5---------7p5-------8-7-5-7-5-3-----------------------------------|
--0------8h10--0------8h10--0-----8h10--------------7-7-7-7-8-8-8-8-------------------|
--0------------0------------0---------------------------------------------------------|
* * * * * * * *

SOLO (WAH) - its all i have gotten so far
--------------------------------------------------------------------------------------|
--------------------------------------------------------------------------------------|
-------------------------10-12-14~----7~--10h12p10h12--9h10p9h10--7-9~----------------|
-------------------10-12--------------------------------------------------------------|
---7-7-7-7-7-10-12--------------------------------------------------------------------|
--------------------------------------------------------------------------------------|

CHORUS
--------------------------------------------------------------------------------------|
--------------------------------------------------------------------------------------|
--------------------------------------------------------------------------------------|
--------------------------------------------------------------------------------------|
---8-8--10-10--8-8--14-15--8-8-10-10--------------------------------------------------|
---8-8--10-10--8-8--14-15--8-8-10-10-<<<<<<<------------------------------------------|

--------------------------------------------------------------------------------------|
--------------------------------------------------------------------------------------|
--------------------------------------------------------------------------------------|
-------------------------------------7h8p7h8p7h8p7h8----------------------------------|
---8-8--10-10--8-8--14-15--8-8-10-10--------------------------------------------------|
---8-8--10-10--8-8--14-15--8-8-10-10--------------------------------------------------|

INTERLUDE
--------------------------------------------------------------------------------------|
--------------------------------------------------------------------------------------|
--------------------------------------------------------------------------------------|
----------------------7-5-------------------------------------------------------------|
---0-0-0-0-0-0-0-0-0-------7-8--8-7-8--12-10-12---------------------------------------|
---0-0-0-0-0-0-0-0-0-----0------8-7-8--12-10-12---------------------------------------|
* * * * * * * * *







--------------------------------------------------------------------------------------|
--------------------------------------------------------------------------------------|
--------------------------------------------------------------------------------------|
----------------------7-5-------------------------------------------------------------|
---0-0-0-0-0-0-0-0-0-------7-8--8-7-8--12-10-12---------------------------------------|
---0-0-0-0-0-0-0-0-0-----0------8-7-8--12-10-12---------------------------------------|
* * * * * * * * *

--------------------------------------------------------------------------------------|
--------------------------------------------------------------------------------------|
--------------------------------------------------------------------------------------|
----------------------7-5-------------------------------------------------------------|
---0-0-0-0-0-0-0-0-0-------7-8--8-7-8--12-10-12---------------------------------------|
---0-0-0-0-0-0-0-0-0-----0------8-7-8--12-10-12---------------------------------------|
* * * * * * * * *

--------------------------------------------------------------------------------------|
--------------------------------------------------------------------------------------|
--------------------------------------------------------------------------------------|
----------------------7-5-------------------------------------------------------------|
---0-0-0-0-0-0-0-0-0-------7-8--8-----------------------------------------------------|
---0-0-0-0-0-0-0-0-0-----0------8-----------------------------------------------------|
* * * * * * * * *

OUTRO
--------------------------------------------------------------------------------------|
--------------------------------------------------------------------------------------|
--------------------------------------------------------------------------------------|
--------------------------------------------------------------------------------------|
---0-0--0-0--0-0--0-0------------------0-0-0-8----------------------------------------|
---0-0--0-0--0-0--0-0------------------0-0-0-8----------------------------------------|
* * * * * * * * * * *

--------------------------------------------------------------------------------------|
--------------------------------------------------------------------------------------|
--------------------------------------------------------------------------------------|
--------------------------------------------------------------------------------------|
---0-0--0-0--0-0--0-0------------------0-0-0-8----------------------------------------|
---0-0--0-0--0-0--0-0------------------0-0-0-8----------------------------------------|
* * * * * * * * * * *

--------------------------------------------------------------------------------------|
--------------------------------------------------------------------------------------|
--------------------------------------------------------------------------------------|
--------------------------------------------------------------------------------------|
---0-0--0-0--0-0--0-0--0-0--0-0--0-0--0-8---------------------------------------------|
---0-0--0-0--0-0--0-0--0-0--0-0--0-0--0-8---------------------------------------------|
* * * * * * * *
--------------------------------------------------------------------------------------|
--------------------------------------------------------------------------------------|
--------------------------------------------------------------------------------------|
--------------------------------------------------------------------------------------|
---0-0--0-0--0-0--0-0------------------0-0-0-8----------------------------------------|
---0-0--0-0--0-0--0-0------------------0-0-0-8----------------------------------------|
* * * * * * * * * * *

--------------------------------------------------------------------------------------|
--------------------------------------------------------------------------------------|
--------------------------------------------------------------------------------------|
--------------------------------------------------------------------------------------|
---0-0--0-0--0-0--0-0------------------0-0--0-0--0-0--0-0-----------------------------|
---0-0--0-0--0-0--0-0------------------0-0--0-0--0-0--0-0-----------------------------|
* * * * * * * * * * * * * * * *

--------------------------------------------------------------------------------------|
--------------------------------------------------------------------------------------|
--------------------------------------------------------------------------------------|
--------------------------------------------------------------------------------------|
---0-0--0-0--0-0--0-0------------------0-0--0-0--0-0--0-0---8*------------------------|
---0-0--0-0--0-0--0-0--<<<<<<<<<-------0-0--0-0--0-0--0-0-----------------------------|
* * * * * * * * * * * * * * * *

END
Revenir en haut Aller en bas
Voir le profil de l'utilisateur http://bulletfmv25.skyblog.com
Matt_BFMV_25
Bavard


Nombre de messages : 38
Date d'inscription : 20/07/2006

MessageSujet: CRIES IN VAIN   Dim 23 Juil à 18:11

INTRO

Gtr 1 w/ phaser or wah
|---------------------------------|---------------------------------|
|---------------------------------|---------------------------------|
|---5---4-----------5---4---------|---5---4-----------5---7---4-4-4-|
|-----------5---7-----------3---2-|-----------5---7-----------------|
|-0---0---0---0---0---0---0---0---|-0---0---0---0---0---0---0-------|
|---------------------------------|---------------------------------|
PM. . . . . . . . . . . . . . .



Gtr 1
|-----------------0------------------------| |-----------------0------------------------|
|-----------------6------------------------| |-----------------0------------------------|
|-----------------5------------------------| |--------------2--4------------------------|
|-3-3-3-3-3-3--3--3------------------------| |-2-2-2-2-2-2--2--2------------------------|
|-3-3-3-3-3-3--3--3------------------------| |-0-0-0-0-0-0--0--0------------------------|
|-3-3-3-3-3-3--3--3------------------------| |------------------------------------------|
| . . . . . . X2 | . . . . . . X2
| |
|Gtr 2 |
|------------------------------------------| |------------------------------------------|
|------------------------------------------| |------------------------------------------|
|----------------5-4---7-5---4-5---4-5-----| |----------------5-4---7-5---4-5---4-5-----|
|--------------------5-----5-----5---------| |--------------------5-----5-----5---------|
|------------------------------------------| |------------------------------------------|
|------------------------------------------| |------------------------------------------|




|-----------------0------------------------| |-----------------0------------------------|
|-----------------6------------------------| |-----------------0------------------------|
|-----------------5------------------------| |--------------2--4------------------------|
|-3-3-3-3-3-3--3--3------------------------| |-2-2-2-2-2-2--2--2------------------------|
|-3-3-3-3-3-3--3--3------------------------| |-0-0-0-0-0-0--0--0------------------------|
|-3-3-3-3-3-3--3--3------------------------| |------------------------------------------|
| . . . . . . | . . . . . .
| |
|Gtr 2 |
|------------------------------------------| |------------------------------------------|
|------------------------------------------| |------------------------------------------|
|----------------5-4---7-5---4-5---4-5-----| |----------------5-4---7-5---4-5---4-5-----|
|--------------------5-----5-----5---------| X2 |--------------------5-----5-----5---------|
|------------------------------------------| |------------------------------------------|
|------------------------------------------| |------------------------------------------|
| |
| |
|Gtr 3 |
|----------------------3-------------------| |----------------------3-------------------|
|----------------5-3-----5---3-5---3-5-----| |----------------5-3-----5---3-5---3-5-----|
|--------------------5-----5-----5---------| |--------------------5-----5-----5---------|
|------------------------------------------| |------------------------------------------|
|------------------------------------------| |------------------------------------------|
|------------------------------------------| |------------------------------------------|



|-----------------0------------------------|
|-----------------0------------------------|
|--------------2--4------------------------|
|-2-2-2-2-2-2--2--2------------------------|
|-0-0-0-0-0-0--0--0------\\\\\\\\\---------|
|------------------------------------------|
| . . . . . . Pick scrape
|
| ~~~~~~~~
|------------------------------------------|
|------------------------------------------|
|----------------5-4---5--------(5)\-------|
|--------------------5---------------------|
|------------------------------------------|
|------------------------------------------|
|
|
| ~~~~~~~~
|------------------------------------------|
|----------------5-3---6--------(6)\-------|
|--------------------5---------------------|
|------------------------------------------|
|------------------------------------------|
|------------------------------------------|


Verse

Guitar 1 and 2.. Guitar 1 Play Higher Harmony
AH
|-------------------|-----|-------------------|----------------|
|-------------------|-----|-------------------|--6\5-----------|
|-2-2-2-2-2-2-2--2--|-----|-2-2-2-2-2-2-2--2--|------7-5/7\5\4-|
|-2-2-2-2-2-2-2--2--|-----|-2-2-2-2-2-2-2--2—-|--3\2-0---------|
|-0-0-0-0-0-0-0--0--|-----|-0-0-0-0-0-0-0--0--|--------3/5\3\2-|
|-------------------|-----|-------------------|----------------|
. . . . . . . . . . . .

|-------------------|-----|-------------------|----------------|
|-------------------|-----|-------------------|----------------|
|-2-2-2-2-2-2-2--2--|-----|-2-2-2-2-2-2-2--2--|-2-2------------|
|-2-2-2-2-2-2-2--2--|-----|-2-2-2-2-2-2-2--2--|-2-2------------|
|-0-0-0-0-0-0-0--0--|-----|-0-0-0-0-0-0-0--0--|-0-0------------|
|-------------------|-----|-------------------|----------------|
. . . . . . . . . . . . .


Guitar 2 Play Higher Harmony

~~~~~~ ~~~~ AH
|------------|-------|------------|---------------------|
|------------|-------|------------|---------------------|
|-------2--5-|-4-----|-------2--5-|-4----2/3\2----------|
|-2-2-2-2--7-|-5-----|-2-2-2-2--7-|-5----------3/5\3\2--|
|-0-0-0-0----|-------|-0-0-0-0----|---------------------|
|------------|-------|------------|---------------------|
. . . . . .

~~~~~~ ~~~~ AH
|------------|-------|------------|---------------------|
|------------|-------|------------|---------------------|
|-------2--5-|-7-----|-------2--5-|-4----2/3\2----------|
|-2-2-2-2--7-|-5-----|-2-2-2-2--7-|-5----------3/5\3\2--|
|-0-0-0-0----|-------|-0-0-0-0----|---------------------|
|------------|-------|------------|---------------------|
. . . . . .


CHORUS

Both Guitars
|-----------------0---------------|
|-----------------6---------------|
|-----------------5---------------| X2
|-3-3-3-3-3-3--3--3---------------|
|-3-3-3-3-3-3--3--3---------------|
|-3-3-3-3-3-3--3--3---------------|
. . . . . .

Gtr1
|-----------------0---------------|
|-----------------0---------------|
|--------------2--4---------------|
|-2-2-2-2-2-2--2--2---------------|
|-0-0-0-0-0-0--0--0---------------|
|---------------------------------|
| . . . . . . X2
|
|Gtr 2
|---------------------------------|
|---------------------------------|
|-5-----4---4-----5-----4---4-----|
|---5-5---5---3-5---5-5---5---3-5-|
|---------------------------------|
|---------------------------------|
. . . . . . . . . .

Both Guitars
|-----------------0---------------|
|-----------------6---------------|
|-----------------5---------------| X2
|-3-3-3-3-3-3--3--3---------------|
|-3-3-3-3-3-3--3--3---------------|
|-3-3-3-3-3-3--3--3---------------|
. . . . . .

Gtr 1
|-----------------0---------------|---------------|
|-----------------0---------------|---------------|
|--------------2--4---------------|----------2--2-|
|-2-2-2-2-2-2--2--2-----------2-2-|-2-2-2-2--2--2-|
|-0-0-0-0-0-0--0--0-----------0-0-|-0-0-0-0--0--0-|
|---------------------------------|---------------|
| . . . . . . . . . . . .
|
|Gtr 2
|---------------------------------|---------------|
|---------------------------------|---------------|
|-5-----4---4-----5-----4---4-----|-5-----4---4---|
|---5-5---5---3-5---5-5---5---3-5-|---5-5---5---3-|
|---------------------------------|---------------|
|---------------------------------|---------------|
| . . . . . . . . . . . . .
|
|Gtr 3
|---------------------------------|---------------|
|-5-----3---3-----5-----3---3-----|-5-----3---3---|
|---5-5---5---4-5---5-5---5---4-5-|---5-5---5---4-|
|---------------------------------|---------------|
|---------------------------------|---------------|
|---------------------------------|---------------|
. . . . . . . . . . . . .

Both Guitars
|-----------------|
|-----------------|
|---------------2-|
|-3-2-0---0-----2-|
|-------3---3-2-0-|
|-----------------|

Guitar 1 intro w/ phaser or wah

Verse

Chorus

Bridge in 3 timing
4

Gtr 1
|--------------------------------------------------|
|--------------------------------------------------|
|--------------------------------------------------|
|-7-7-7-7-7-7-7-7-7-7-7-7-7-7-7-7-7-7--7-7-7-7-7-7-| X4
|-0-0-0-0-0-0-8-8-8-8-8-8-101010101010-7-7-7-7-7-7-|
|--------------------------------------------------|
. . . . . . . . . . . . . . . . . . . . . . . .

Gtr 1
|--------------------------------------------------|
|--------------------------------------------------|
|--------------------------------------------------|
|-7-7-7-7-7-7-7-7-7-7-7-7-7-7-7-7-7-7--7-7-7-7-7-7-|
|-0-0-0-0-0-0-8-8-8-8-8-8-101010101010-7-7-7-7-7-7-|
|--------------------------------------------------|
| . . . . . . . . . . . . . . . . . . . . . . . .
| X3
|Gtr 2
|--------------------------------------------------|
|--------------------------------------------------|
|-5-5-5-5-5-5-2-2-2-2-2-2-4-4-4-4-4-4--------------|
|-7-7-7-7-7-7-3-3-3-3-3-3-5-5-5-5-5-5--5-5-5-5-5-5-|
|--------------------------------------7-7-7-7-7-7-|
|--------------------------------------------------|
. . . . . . . . . . . . . . . . . . . . . . . .

Gtr 1
|--------------------------------------------------|
|--------------------------------------------------|
|--------------------------------------------------|
|-7-7-7-7-7-7-7-7-7-7-7-7-7-7-7-7-7-7--7-----------|
|-0-0-0-0-0-0-8-8-8-8-8-8-101010101010-7-----------|
|--------------------------------------------------|
| . . . . . . . . . . . . . . . . . .
|
|Gtr 2
|--------------------------------------------------|
|--------------------------------------------------|
|-5-5-5-5-5-5-2-2-2-2-2-2-4-4-4-4-4-4--------------|
|-7-7-7-7-7-7-3-3-3-3-3-3-5-5-5-5-5-5--5-----------|
|--------------------------------------7-----------|
|--------------------------------------------------|
. . . . . . . . . . . . . . . . . .

|-------------------------------------------------------------|
|-------------------------------------------------------------|
|-------------------------------------------------------------|
|-7------------3------------5----------2----------------------|
|-7------------3------------5----------2----------------------|
|-7------------3------------5----------2----------------------|
|
| X2
|
|-------------------------------------------------------------|
|-------------------------------------------------------------|
|-----9---9-10-----9---9-10-------9----9-10-10/12-10-9-10-9-7-|
|-7-7---7-----------------------------------------------------|
|--------------8-8---8------10-10---10------------------------|
|-------------------------------------------------------------|



|----------------------------------------------------------------|
|----------------------------------------------------------------|
|-----9---9-10-----9---9-10-------9----9-10-12-10h12p10\9-10-9-7-|
|-7-7---7--------------------------------------------------------|
|--------------8-8---8------10-10---10---------------------------|
|----------------------------------------------------------------|
|
| X2
|
|----------------------------------------------------------------|
|------8--8/10-----8---8/10-------8----8/10----------------------|
|--------------------------------------------9-7-h9-p7\5--7--5-4-|
|-1010--10-----7-7---7------9--9-----9---------------------------|
|----------------------------------------------------------------|
|----------------------------------------------------------------|

Then Both Guitar Pick Scrape

Chorus


Outro

Repeat Gtr 1 intro riff w/ phaser X5

Gtr 2 Enter on second time of intro riff
|-----------------------------|-------------------------------|
|-----------------------------|-------------------------------|
|-2-2--2-2-2--2-2-2--2-2-2--2-|-2-2--2-2-2--2-----------------|
|-2-2--2-2-2--2-2-2--2-2-2--2-|-2-2--2-2-2--2-3-3-3-3-3-3-3-3-| X4
|-0-0--0-0-0--0-0-0--0-0-0--0-|-0-0--0-0-0--0-3-3-3-3-3-3-3-3-|
|-----------------------------|---------------3-3-3-3-3-3-3-3-|
. . . . . . . . . . . . . . . . . . . . . . . . . .
each time is repeated with less palm mute

Both guitars
* - Natural Harmonics
|------------------------| |-----------------|
|-----------5*5*5*5*5*5*-| |-----------------|
|-2-2--2-2---------------| |-----------------|
|-2-2--2-2---------------| X3 |-3-3-3-3-3---3---|
|-0-0--0-0---------------| |-3-3-3-3-3h5-3---|
|------------------------| |-3-3-3-3-3---3---|


Gtr 1
|------------------------| |-----------------|
|-----------5*5*5*5*5*5*-| |-----------------|
|-2-2--2-2---------------| |-----------------|
|-2-2--2-2---------------| X3 |-3-3-3-3-3-3-3-3-|
|-0-0--0-0---------------| |-3-3-3-3-3-3-3-3-|
|------------------------| |-3-3-3-3-3-3-3-3-|
| |
|Gtr 2 |
|------------------------| |-----------------|
|------------------------| |-----------------|
|-2-2--2-2--5*5*5*5*5*5*-| |-----------------|
|-2-2--2-2---------------| X3 |-3-3-3-3-3-3-3-3-|
|-0-0--0-0---------------| |-3-3-3-3-3-3-3-3-|
|------------------------| |-3-3-3-3-3-3-3-3-|


|---|
|---|
|-2-|
|-2-|
|-0-|
|---|
Revenir en haut Aller en bas
Voir le profil de l'utilisateur http://bulletfmv25.skyblog.com
crazygirl
The Little Dédé Rocky


Nombre de messages : 2061
Age : 26
Localisation : 78
Date d'inscription : 02/03/2006

MessageSujet: Re: Tablatures   Mer 27 Déc à 22:14

Quelques sites avec des tablatures pour guitare et basse puis pour certains batterie

http://www.ultimate-guitar.com/tabs/bullet_for_my_valentine_tabs.htm
http://www.partoch.com/artistes/tablature,BULLET+FOR+MY+VALENTINE.html
http://www.911tabs.com/tabs/b/bullet_for_my_valentine/
http://www.guitarmasta.net/b/bullet_for_my_valentine/
Revenir en haut Aller en bas
Voir le profil de l'utilisateur http://xxlittle-dedexx.skyblog.com
bullet for devil
Bavard


Nombre de messages : 45
Age : 25
Localisation : ardeche
Date d'inscription : 01/11/2006

MessageSujet: Re: Tablatures   Sam 6 Jan à 0:01

c pas pour etre chient mais je fai de la guitard depuit kelke moi ett sur guitar pro i a pas les h donc sa represente koi
Revenir en haut Aller en bas
Voir le profil de l'utilisateur
crazygirl
The Little Dédé Rocky


Nombre de messages : 2061
Age : 26
Localisation : 78
Date d'inscription : 02/03/2006

MessageSujet: Re: Tablatures   Dim 7 Jan à 23:20

j'en sais rien, jspr que kelkun te répondra car la gratte c pas mon domaine XD
Revenir en haut Aller en bas
Voir le profil de l'utilisateur http://xxlittle-dedexx.skyblog.com
deathsong666
goth to slaughter


Nombre de messages : 1024
Age : 27
Localisation : paris
Date d'inscription : 28/04/2006

MessageSujet: Re: Tablatures   Sam 13 Jan à 22:35

le H sa veut dire Hammer faut frapper la corde avec la main gauche sur la case indiqué....passer de la première note a celle indiqué après le h

_________________
http://bullet-valentine.skyblog.com
things happen but we don't really know why
Revenir en haut Aller en bas
Voir le profil de l'utilisateur http://psychedepileptik.skyrock.com/
Kurayami
Fan


Nombre de messages : 117
Age : 22
Localisation : Thomery, coin perdu mais sympas x)
Date d'inscription : 04/06/2007

MessageSujet: Re: Tablatures   Mar 26 Juin à 22:18

Je vien de commencé x) (3jour) Et ya pas un morceau assez facile pour debutant histoire de commencé ???
Revenir en haut Aller en bas
Voir le profil de l'utilisateur
Aurel
In Distortion We Trust


Nombre de messages : 1922
Age : 24
Date d'inscription : 08/03/2006

MessageSujet: Re: Tablatures   Mer 27 Juin à 12:53

Nirvana - Smoke On The Water (sur 2 cordes) et Whites Stripes

Après Red Hot car sa t'entraînes à faire quelques accords, et après tu voles et fait ce que tu veux Wink
Revenir en haut Aller en bas
Voir le profil de l'utilisateur http://metalleux785.skyblog.com
Kurayami
Fan


Nombre de messages : 117
Age : 22
Localisation : Thomery, coin perdu mais sympas x)
Date d'inscription : 04/06/2007

MessageSujet: Re: Tablatures   Mer 27 Juin à 19:47

Mdr merci ^^

j'ai deja des cloke beuh x)
Revenir en haut Aller en bas
Voir le profil de l'utilisateur
Shadowharicot
Best Pinpin


Nombre de messages : 756
Age : 23
Localisation : Lorraine, 54
Date d'inscription : 03/04/2007

MessageSujet: Re: Tablatures   Dim 18 Nov à 23:10

Suffocating Under Words of Sorrow (Riff d'Intro)

/---------------------------------------------
/---------------------------------------------
/-3-2------5-3-2-3----------------------------
/------3-5------------------------------------
/---------------------------------------------
/---------------------------------------------

/---------------------------------------------
/---------------------------------------------
/-7h87--5h75--3h53--2h32-----------------
/---------------------------------------------
/---------------------------------------------
/---------------------------------------------

Ca sonne bien, et c'est simple a jouer ^^
Revenir en haut Aller en bas
Voir le profil de l'utilisateur
Guitar-pro
Fan


Nombre de messages : 207
Age : 25
Localisation : Montelimar capital du nougat
Date d'inscription : 20/10/2007

MessageSujet: Re: Tablatures   Mar 20 Nov à 18:51

Ouaip mais Bullet generalement (même tout le temps joue en Drop C) ^^
Revenir en haut Aller en bas
Voir le profil de l'utilisateur http://bubbles-bum.skyrock.com
Chikane
Nouveau


Nombre de messages : 7
Age : 23
Localisation : dans le monde du metal!^^
Date d'inscription : 15/12/2007

MessageSujet: Re: Tablatures   Jeu 20 Déc à 10:12

j'voulais savoir est-ce que la tablature de Tears Don't Fall c'est celle de la version acoustic (ou alors elle n'y est pas?) c'est parce que je suis en train de m'entraîner sur la version acoustic
Revenir en haut Aller en bas
Voir le profil de l'utilisateur http://shizuma6906.skyrock.com
Guitar-pro
Fan


Nombre de messages : 207
Age : 25
Localisation : Montelimar capital du nougat
Date d'inscription : 20/10/2007

MessageSujet: Re: Tablatures   Jeu 20 Déc à 21:53

deux sites à te proposer http://www.ultimate-guitar.com et http://www.911tabs.com/
Revenir en haut Aller en bas
Voir le profil de l'utilisateur http://bubbles-bum.skyrock.com
Chikane
Nouveau


Nombre de messages : 7
Age : 23
Localisation : dans le monde du metal!^^
Date d'inscription : 15/12/2007

MessageSujet: Re: Tablatures   Lun 24 Déc à 12:51

ok merci pour les adresses! Smile
Revenir en haut Aller en bas
Voir le profil de l'utilisateur http://shizuma6906.skyrock.com
Contenu sponsorisé




MessageSujet: Re: Tablatures   Aujourd'hui à 21:20

Revenir en haut Aller en bas
 
Tablatures
Voir le sujet précédent Voir le sujet suivant Revenir en haut 
Page 1 sur 1
 Sujets similaires
-
» Editeur de tablatures et d'accords en ligne
» Recueil tablatures Son House
» tablatures de hendrix
» [Tablatures] Tabs Simple
» tablatures

Permission de ce forum:Vous ne pouvez pas répondre aux sujets dans ce forum
Bullet For My Valentine :: Fans :: Pour les gratteux !-
Sauter vers: